What Swede71 is working on :)

Discussion in 'Studio & Stage' started by swede71, Jan 29, 2013.

  1. swede71

    swede71 Tja ba!Läget?

    Joined:
    May 5, 2012
    Messages:
    900
    Likes Received:
    62
    Hi Guys!Tonight im working on Hendrix version of Like a Rolling stone and Abba The winner takes it all :)
     
    #21 swede71, Feb 12, 2013
    Last edited: Feb 12, 2013
  2. swede71

    swede71 Tja ba!Läget?

    Joined:
    May 5, 2012
    Messages:
    900
    Likes Received:
    62
    Hi guys!Tonight im working on scales.I love the V-I in minor.Harmonic minor the most common choice to play over the dominant chord.If you use a flat 5 sub and use the melodic minor interesting sounds start to come out.In this case it means using the F melodic minor(Bb lydian dominant)over the Bb7b5 chord.

    Code:
       E7      Am       Bb7b5   Am
    e |--------5-------|--------5-------|
    B |5-------5-------|5-------5-------|
    G |7-------5-------|7-------5-------|
    D |6-------7-------|6-------7-------|
    A |7-------7-------|--------7-------|
    E |--------5-------|6-------5-------|
    
     
    #22 swede71, Feb 24, 2013
    Last edited: Feb 24, 2013
  3. swede71

    swede71 Tja ba!Läget?

    Joined:
    May 5, 2012
    Messages:
    900
    Likes Received:
    62
    Hi guys!All weekend i have been working on Hedrixy,R&bish chord stylings,drills and slides and partial barres.Very tricky to keep time and have the partial barres to ring the right way.I came up with this little exercise with a chordprogression based on the circle of fifth.This way you can see and play all the same chord embellishment on different strings.

    Code:
       F       C        G       D        A   
    e |1---1---3---3---|3---3---5---5---|5---5----5-55---|
    B |1---1---5---5---|3---3---7---7---|5---5----5-55---|
    G |2---2---5---5---|4---4---7---7---|6---6----6-66---|
    D |3---3---5---5---|5---5---7---7---|7---7----7-77---|
    A |3---3---3---3---|5---5---5---5---|7---7----7-77---|
    E |1---1-----------|3---3-----------|5---5----5-55---|
       1and2and3and4and 1and2and3and4and 1and2and3and4and
       F       C        G       D          A        
    e |----------------|---------------10-|-----------------------|
    B |----------------|------8------s-10-|-------10-10h----------|
    G |--------------5-|-----s7-7---911---|-----s-9--9-119--9h----|
    D |------3------s5-|5---79------------|7---911--------119119--|
    A |-----s3-3---57--|------------------|---------------------12|
    E |1---35----------|------------------|-----------------------|
       1   331 1   331  1   312 1   22 1   1   33 2  2 3 13 13 14      
             1       1        1        1          1  1      1
       F       C        G        D        h p   A             h      h
    e |----------------|-----h-p-------101210--|-------h-p--12--12--------|
    B |-------------hp-|----8108-s--10-------10|-----101210-121412-10--10-|
    G |-----hp-----575-|s-7-----711------------|s--9-------9-------9-119--|
    D |----353-s-5----5|9----------------------|11------------------------|
    A |s-3----37-------|-----------------------|--------------------------|
    E |5---------------|-----------------------|--------------------------|
       3 1 14113 1 1411 3 1 24 212  1  1 3 1 1  3  1 2 4 2 11 3 1  2 3 2
                                                            1   1  1   1
     
  4. swede71

    swede71 Tja ba!Läget?

    Joined:
    May 5, 2012
    Messages:
    900
    Likes Received:
    62
    Tonight im working on Tags bop line :)
     
  5. alantig

    alantig SSBMA

    Joined:
    Apr 28, 2012
    Messages:
    8,388
    Likes Received:
    8,852
    Tonight I worked on "War Machine".

    Really.

    Only not on acoustic this time!
     
  6. Tag

    Tag New Member

    Joined:
    Feb 15, 2013
    Messages:
    1,515
    Likes Received:
    782

    Lol! Not mine by a long shot though. I copped it from Charlie Parker years ago. If you want some other ones, just ask. I have stolen them all! ;)
     
  7. swede71

    swede71 Tja ba!Läget?

    Joined:
    May 5, 2012
    Messages:
    900
    Likes Received:
    62
    The Kiss song?
     
  8. alantig

    alantig SSBMA

    Joined:
    Apr 28, 2012
    Messages:
    8,388
    Likes Received:
    8,852
    Yes. :rock:

    Hans mentioned it in another thread and put a bug in my brain. Always liked the song and the riff and found myself playing it on an acoustic one night, so I figured it was time.
     
  9. swede71

    swede71 Tja ba!Läget?

    Joined:
    May 5, 2012
    Messages:
    900
    Likes Received:
    62
    I love that album.
     
  10. swede71

    swede71 Tja ba!Läget?

    Joined:
    May 5, 2012
    Messages:
    900
    Likes Received:
    62
    Hi guys!Tonight and for the last couple of days ive been working on hybrid picking.I really like open voiced triads as in ex 1.Ex 2 is based on those triads with a pull-off to an open strings.In the last E chord the 3rd is hammered-on on the beat.The G maj7 chord is thrown in for a scandinavian melancholy reason :).

    Code:
    ex 1
    e |4--2------------|
    B |------2---------|
    G |4--2-----1------|
    D |2--0--2---------|
    A |------0--2------|
    E |---------0------|
    ex 2
    e |---4-p0-----2-p0--------|------------------------|------------------------|
    B |---------------------2-p|0-----------------------|---3-p0-----2-p0--0-----|
    G |---4--------2-----------|------1-----------------|------------------------|
    D |2--------0-----------2--|------------------------|---4--------2---4h6-----|
    A |------------------0-----|------2-----------------|---------0--------------|
    E |------------------------|---0--------------------|3-----------------0-----|
       1 and 2 and 3 and 4 and  1 and 2 and 3 and 4 and  1 and 2 and 3 and 4 and
     
    #30 swede71, Mar 30, 2013
    Last edited: Mar 30, 2013
  11. jfb

    jfb Plank Owner

    Joined:
    Dec 1, 2012
    Messages:
    7,280
    Likes Received:
    1,966
    You are a busy dude. I like it.
     
  12. swede71

    swede71 Tja ba!Läget?

    Joined:
    May 5, 2012
    Messages:
    900
    Likes Received:
    62
    Hi jfb!Im just a guitaraddict :)...too late stopping me now from playing guitar all the time.
     
  13. swede71

    swede71 Tja ba!Läget?

    Joined:
    May 5, 2012
    Messages:
    900
    Likes Received:
    62
    Hi guys!Tonight im working on rest-strokes.I got this from listening and watching Jeff Beck pushing down on the strings with his thumb really making the notes jump out of his speakers.I called it push picking at first for myself not realising its an old technique from country flatpicking if you use a pick and from classical guitar with fingers.So for me its basically using downstrokes as much as you can trying to be Jeff Beck with a pick.Works great with a cleaner sound,just alittle dirt to give it sustain.The power from the downstrokes will make amp distort more.Im not saying only use downstrokes but as an effect.Im coming from the 80s when it was alternate picking as a rule with the occasional sweep and perhaps some tapping for maximum virtouso sounds.Of course with a superdistorted amp for no nuances coming through.For a starter with this technique,listen or watch Jeff Beck play Brush with the blues,the first phrase.Try to get that sound with the pick.Please try with thumb too and hear what an amazing difference in sound it is,how much louder the notes gets.I guess thats where the phrase diggin in comes from :).
     
    #33 swede71, Aug 29, 2013
    Last edited: Aug 29, 2013
  14. swede71

    swede71 Tja ba!Läget?

    Joined:
    May 5, 2012
    Messages:
    900
    Likes Received:
    62
    Found this video on youtube and got inspired to check out some songs.Tonight Thank you and Since ive been loving you.Time to finally learn No quarter i think so that i will check out tomorrow :)
     
    #34 swede71, Aug 30, 2013
    Last edited by a moderator: Dec 22, 2015
  15. swede71

    swede71 Tja ba!Läget?

    Joined:
    May 5, 2012
    Messages:
    900
    Likes Received:
    62
    Working on my picking today.Especially the Bouncepicking Eric Johnson talks about here.Great if you want to combine with the reststrokes i talked about earlier.Had almost forgot how amazing this "instructional" video is.
     
    #36 swede71, Sep 2, 2013
    Last edited by a moderator: Dec 22, 2015
  16. swede71

    swede71 Tja ba!Läget?

    Joined:
    May 5, 2012
    Messages:
    900
    Likes Received:
    62
    Code:
    e |----4-7-----4-7-----4-9-----4-9-----6-9-----6-9-----6-11-----6-11|
    B |5-7-----5-7-----6-7-----6-7-----7-9-----7-9-----8-9------8-9-----|
    G |-----------------------------------------------------------------|
    D |-----------------------------------------------------------------|
    A |-----------------------------------------------------------------|
    E |-----------------------------------------------------------------|
    e |-----7-11------7-11-------9-14-------9-14-------11-14-------11-14|
    B |9-11------9-11------11-12------11-12------12-14-------12-14------|
    G |-----------------------------------------------------------------|
    D |-----------------------------------------------------------------|
    A |-----------------------------------------------------------------|
    E |-----------------------------------------------------------------|
    e |------11-16-------11-16-------12-16-------12-16-------14-19------|
    B |13-14-------13-14-------14-16-------14-16-------16-17-------16-17|
    G |-----------------------------------------------------------------|
    D |-----------------------------------------------------------------|
    A |-----------------------------------------------------------------|
    E |-----------------------------------------------------------------|
    e |14-19-------16-19------16-19---|
    B |------17-19------17-19-------17|
    G |-------------------------------|
    D |-------------------------------|
    A |-------------------------------|
    E |-------------------------------|
    
     
    #37 swede71, Sep 3, 2013
    Last edited: Sep 3, 2013
  17. swede71

    swede71 Tja ba!Läget?

    Joined:
    May 5, 2012
    Messages:
    900
    Likes Received:
    62
    Last reply was a pickingexercise in B i came up with today.Start every arpeggio with 2nd finger on your left hand.Try with hammer-ons for building strenght
     
    #38 swede71, Sep 3, 2013
    Last edited: Sep 3, 2013
  18. swede71

    swede71 Tja ba!Läget?

    Joined:
    May 5, 2012
    Messages:
    900
    Likes Received:
    62
    Besides from the super cool guitar he plays i really dig the rockabilly style licks.Tonight i work on the lick that starts around 0.30.
     
    #39 swede71, Sep 27, 2013
    Last edited by a moderator: Dec 22, 2015
  19. swede71

    swede71 Tja ba!Läget?

    Joined:
    May 5, 2012
    Messages:
    900
    Likes Received:
    62

Share This Page

  1. This site uses cookies to help personalise content, tailor your experience and to keep you logged in if you register.
    By continuing to use this site, you are consenting to our use of cookies.
    Dismiss Notice